0
SECTION
2
HEADER
9
$INSUNITS
70
4
9
$ACADVER
1
AC1014
9
$HANDSEED
5
FFFF
0
ENDSEC
0
SECTION
2
TABLES
0
TABLE
2
VPORT
5
8
100
AcDbSymbolTable
0
ENDTAB
0
TABLE
2
LTYPE
5
5
100
AcDbSymbolTable
0
LTYPE
5
14
100
AcDbSymbolTableRecord
100
AcDbLinetypeTableRecord
2
BYBLOCK
70
0
0
LTYPE
5
15
100
AcDbSymbolTableRecord
100
AcDbLinetypeTableRecord
2
BYLAYER
70
0
0
ENDTAB
0
TABLE
2
LAYER
5
2
100
AcDbSymbolTable
70
2
0
LAYER
5
50
100
AcDbSymbolTableRecord
100
AcDbLayerTableRecord
2
0
70
0
6
CONTINUOUS
0
ENDTAB
0
TABLE
2
STYLE
5
3
100
AcDbSymbolTable
70
1
0
STYLE
5
11
100
AcDbSymbolTableRecord
100
AcDbTextStyleTableRecord
2
STANDARD
70
0
0
ENDTAB
0
TABLE
2
VIEW
5
6
100
AcDbSymbolTable
70
0
0
ENDTAB
0
TABLE
2
UCS
5
7
100
AcDbSymbolTable
70
0
0
ENDTAB
0
TABLE
2
APPID
5
9
100
AcDbSymbolTable
70
2
0
APPID
5
12
100
AcDbSymbolTableRecord
100
AcDbRegAppTableRecord
2
ACAD
70
0
0
ENDTAB
0
TABLE
2
DIMSTYLE
5
A
100
AcDbSymbolTable
70
1
0
ENDTAB
0
TABLE
2
BLOCK_RECORD
5
1
100
AcDbSymbolTable
70
1
0
BLOCK_RECORD
5
1F
100
AcDbSymbolTableRecord
100
AcDbBlockTableRecord
2
*MODEL_SPACE
0
BLOCK_RECORD
5
1B
100
AcDbSymbolTableRecord
100
AcDbBlockTableRecord
2
*PAPER_SPACE
0
ENDTAB
0
ENDSEC
0
SECTION
2
BLOCKS
0
BLOCK
5
20
100
AcDbEntity
100
AcDbBlockBegin
2
*MODEL_SPACE
0
ENDBLK
5
21
100
AcDbEntity
100
AcDbBlockEnd
0
BLOCK
5
1C
100
AcDbEntity
100
AcDbBlockBegin
2
*PAPER_SPACE
0
ENDBLK
5
1D
100
AcDbEntity
100
AcDbBlockEnd
0
ENDSEC
0
SECTION
2
ENTITIES
0
LWPOLYLINE
5
100
100
AcDbEntity
8
0
100
AcDbPolyline
90
4
70
1
43
0.0
10
-59.000000953674316
20
-166.75000369548798
10
59.000000953674316
20
-166.75000369548798
10
59.000000953674316
20
180.25000393390656
10
-59.000000953674316
20
180.25000393390656
0
CIRCLE
5
101
100
AcDbEntity
8
0
100
AcDbCircle
10
-49.000002352764639
20
-158.74999777114064
30
0
40
1.9999964728856259
210
0
220
-0
230
1
0
CIRCLE
5
102
100
AcDbEntity
8
0
100
AcDbCircle
10
-49.000003293554066
20
52.250002026557922
30
0
40
2.0000013379795463
210
0
220
-0
230
1
0
CIRCLE
5
103
100
AcDbEntity
8
0
100
AcDbCircle
10
-49.000000953674316
20
172.25000065206544
30
0
40
2.0000008868525647
210
0
220
-0
230
1
0
CIRCLE
5
104
100
AcDbEntity
8
0
100
AcDbCircle
10
49.000002333864543
20
172.25000338929294
30
0
40
2.0000002069410221
210
0
220
-0
230
1
0
CIRCLE
5
105
100
AcDbEntity
8
0
100
AcDbCircle
10
49.000000953674316
20
53.24302610100959
30
0
40
1.9999989485757537
210
0
220
0
230
1
0
CIRCLE
5
106
100
AcDbEntity
8
0
100
AcDbCircle
10
49.000006490849977
20
-158.75000190818332
30
0
40
1.9999949577018925
210
0
220
0
230
1
0
LINE
5
107
100
AcDbEntity
8
0
100
AcDbLine
10
59.000000953674316
20
-166.75000369548798
30
0
11
59.000000953674316
21
-171.75000369548798
31
0
0
LINE
5
108
100
AcDbEntity
8
0
100
AcDbLine
10
55.999999046325684
20
-174.74999606609344
30
0
11
-55.999999046325684
21
-174.74999606609344
31
0
0
LINE
5
109
100
AcDbEntity
8
0
100
AcDbLine
10
-59.000000953674316
20
-171.75000369548798
30
0
11
-59.000000953674316
21
-166.75000369548798
31
0
0
LINE
5
110
100
AcDbEntity
8
0
100
AcDbLine
10
-55.999999046325684
20
-174.74999606609344
30
0
11
-55.999999046325684
21
-171.75000369548798
31
0
0
LINE
5
111
100
AcDbEntity
8
0
100
AcDbLine
10
-59.000000953674316
20
-171.75000369548798
30
0
11
-55.999999046325684
21
-171.75000369548798
31
0
0
ARC
5
112
100
AcDbEntity
8
0
100
AcDbCircle
10
-55.999999046325684
20
-171.75000369548798
30
0
40
2.9999923706054688
210
0
220
0
230
1
100
AcDbArc
50
180
51
270
0
LINE
5
113
100
AcDbEntity
8
0
100
AcDbLine
10
0
20
0
30
0
11
0
21
290.34282137559154
31
0
0
ARC
5
114
100
AcDbEntity
8
0
100
AcDbCircle
10
55.999999046325684
20
-171.75000369548798
30
0
40
2.9999923706054688
210
0
220
0
230
1
100
AcDbArc
50
-90
51
0
0
LINE
5
115
100
AcDbEntity
8
0
100
AcDbLine
10
59.000000953674316
20
6.7500001192092896
30
0
11
-103.79294393582605
21
6.7500001192092896
31
0
0
ARC
5
116
100
AcDbEntity
8
0
100
AcDbCircle
10
-55.999999046325684
20
185.25000393390656
30
0
40
2.9999923706054688
210
0
220
-0
230
1
100
AcDbArc
50
90
51
180
0
LINE
5
117
100
AcDbEntity
8
0
100
AcDbLine
10
-55.999999046325684
20
188.24999630451202
30
0
11
-55.999999046325684
21
185.25000393390656
31
0
0
ARC
5
118
100
AcDbEntity
8
0
100
AcDbCircle
10
55.999999046325684
20
185.25000393390656
30
0
40
2.9999923706054688
210
0
220
0
230
1
100
AcDbArc
50
0
51
90
0
LINE
5
119
100
AcDbEntity
8
0
100
AcDbLine
10
59.000000953674316
20
180.25000393390656
30
0
11
59.000000953674316
21
185.25000393390656
31
0
0
LINE
5
120
100
AcDbEntity
8
0
100
AcDbLine
10
-59.000000953674316
20
185.25000393390656
30
0
11
-55.999999046325684
21
185.25000393390656
31
0
0
LINE
5
121
100
AcDbEntity
8
0
100
AcDbLine
10
55.999999046325684
20
188.24999630451202
30
0
11
-55.999999046325684
21
188.24999630451202
31
0
0
LINE
5
122
100
AcDbEntity
8
0
100
AcDbLine
10
-59.000000953674316
20
185.25000393390656
30
0
11
-59.000000953674316
21
180.25000393390656
31
0
0
ENDSEC
0
SECTION
2
OBJECTS
0
DICTIONARY
5
C
100
AcDbDictionary
3
ACAD_GROUP
350
D
3
ACAD_MLINESTYLE
350
17
0
DICTIONARY
5
D
100
AcDbDictionary
0
DICTIONARY
5
1A
330
C
100
AcDbDictionary
0
DICTIONARY
5
17
100
AcDbDictionary
0
ENDSEC
0
EOF
